 PTC IGES file: 250-B-T.igs                                             S      1
1H,,1H;,7H250-B-T,11H250-B-T.igs,27HCreo Parametric by PTC Inc.,        G      1
7H2014500,32,38,7,38,15,7H250-B-T,1.,1,4HINCH,32768,0.5,                G      2
15H20150612.143349,4.32995e-05,0.433013,5HEliot,7HUnknown,10,0,         G      3
15H20150612.143349;                                                     G      4
     314       1       1       1       0       0       0       001000200D      1
     314       0       4       1       0                   COLOR       1D      2
     314       2       1       1       0       0       0       001000200D      3
     314       0       1       1       0                   COLOR       2D      4
     314       3       1       1       0       0       0       001000200D      5
     314       0       2       1       0                   COLOR       3D      6
     314       4       1       1       0       0       0       001000200D      7
     314       0       8       1       0                   COLOR       4D      8
     314       5       1       1       0       0       0       001000200D      9
     314       0       8       1       0                   COLOR       5D     10
     314       6       1       1       0       0       0       001000200D     11
     314       0       8       1       0                   COLOR       6D     12
     314       7       1       1       0       0       0       001000200D     13
     314       0       5       1       0                   COLOR       7D     14
     314       8       1       1       0       0       0       001000200D     15
     314       0       8       1       0                   COLOR       8D     16
     314       9       1       1       0       0       0       001000200D     17
     314       0       8       1       0                   COLOR       9D     18
     124      10       1       1       0       0       0       001000000D     19
     124       0       0       2       0                   XFORM       1D     20
     100      12       1       1       0       0      19       001010000D     21
     100       0       0       1       0                     ARC       1D     22
     110      13       1       1       0       0       0       001010000D     23
     110       0       0       1       0                    LINE       1D     24
     124      14       1       1       0       0       0       001000000D     25
     124       0       0       1       0                   XFORM       2D     26
     100      15       1       1       0       0      25       001010000D     27
     100       0       0       1       0                     ARC       2D     28
     110      16       1       1       0       0       0       001010000D     29
     110       0       0       1       0                    LINE       2D     30
     124      17       1       1       0       0       0       001000000D     31
     124       0       0       1       0                   XFORM       3D     32
     100      18       1       1       0       0      31       001010000D     33
     100       0       0       1       0                     ARC       3D     34
     124      19       1       1       0       0       0       001000000D     35
     124       0       0       2       0                   XFORM       4D     36
     100      21       1       1       0       0      35       001010000D     37
     100       0       0       1       0                     ARC       4D     38
     124      22       1       1       0       0       0       001000000D     39
     124       0       0       1       0                   XFORM       5D     40
     100      23       1       1       0       0      39       001010000D     41
     100       0       0       1       0                     ARC       5D     42
     124      24       1       1       0       0       0       001000000D     43
     124       0       0       1       0                   XFORM       6D     44
     100      25       1       1       0       0      43       001010000D     45
     100       0       0       1       0                     ARC       6D     46
     110      26       1       1       0       0       0       001010000D     47
     110       0       0       1       0                    LINE       3D     48
     110      27       1       1       0       0       0       001010000D     49
     110       0       0       1       0                    LINE       4D     50
     502      28       1       1       0       0       0       001010000D     51
     502       0       0       3       1                  VERTEX       1D     52
     504      31       1       1       0       0       0       000010001D     53
     504       0       0       3       1                    EDGE       1D     54
     110      34       1       1       0       0       0       001010000D     55
     110       0       0       1       0                    LINE       5D     56
     124      35       1       1       0       0       0       001000000D     57
     124       0       0       3       0                   XFORM       7D     58
     100      38       1       1       0       0      57       001010000D     59
     100       0       0       2       0                     ARC       7D     60
     120      40       1       1       0       0       0       001010000D     61
     120       0       0       1       0                    SREV       1D     62
     508      41       1       1       0       0       0       001010000D     63
     508       0       0       1       1                EDGELOOP       1D     64
     510      42       1       1       0       0       0       000010000D     65
     510       0       0       1       1                    FACE       1D     66
     110      43       1       1       0       0       0       001010000D     67
     110       0       0       1       0                    LINE       6D     68
     110      44       1       1       0       0       0       001010000D     69
     110       0       0       2       0                    LINE       7D     70
     120      46       1       1       0       0       0       001010000D     71
     120       0       0       1       0                    SREV       2D     72
     508      47       1       1       0       0       0       001010000D     73
     508       0       0       1       1                EDGELOOP       2D     74
     510      48       1       1       0       0       0       000010000D     75
     510       0       0       1       1                    FACE       2D     76
     110      49       1       1       0       0       0       001010000D     77
     110       0       0       1       0                    LINE       8D     78
     110      50       1       1       0       0       0       001010000D     79
     110       0       0       2       0                    LINE       9D     80
     120      52       1       1       0       0       0       001010000D     81
     120       0       0       1       0                    SREV       3D     82
     508      53       1       1       0       0       0       001010000D     83
     508       0       0       1       1                EDGELOOP       3D     84
     510      54       1       1       0       0       0       000010000D     85
     510       0       0       1       1                    FACE       3D     86
     110      55       1       1       0       0       0       001010000D     87
     110       0       0       1       0                    LINE      10D     88
     124      56       1       1       0       0       0       001000000D     89
     124       0       0       3       0                   XFORM       8D     90
     100      59       1       1       0       0      89       001010000D     91
     100       0       0       2       0                     ARC       8D     92
     120      61       1       1       0       0       0       001010000D     93
     120       0       0       1       0                    SREV       4D     94
     508      62       1       1       0       0       0       001010000D     95
     508       0       0       1       1                EDGELOOP       4D     96
     510      63       1       1       0       0       0       000010000D     97
     510       0       0       1       1                    FACE       4D     98
     110      64       1       1       0       0       0       001010000D     99
     110       0       0       1       0                    LINE      11D    100
     110      65       1       1       0       0       0       001010000D    101
     110       0       0       1       0                    LINE      12D    102
     120      66       1       1       0       0       0       001010000D    103
     120       0       0       1       0                    SREV       5D    104
     508      67       1       1       0       0       0       001010000D    105
     508       0       0       1       1                EDGELOOP       5D    106
     510      68       1       1       0       0       0       000010000D    107
     510       0       0       1       1                    FACE       5D    108
     110      69       1       1       0       0       0       001010000D    109
     110       0       0       1       0                    LINE      13D    110
     110      70       1       1       0       0       0       001010000D    111
     110       0       0       1       0                    LINE      14D    112
     120      71       1       1       0       0       0       001010000D    113
     120       0       0       1       0                    SREV       6D    114
     508      72       1       1       0       0       0       001010000D    115
     508       0       0       1       1                EDGELOOP       6D    116
     510      73       1       1       0       0       0       000010000D    117
     510       0       0       1       1                    FACE       6D    118
     514      74       1       1       0       0       0       000010000D    119
     514       0       0       1       1                   SHELL       1D    120
     124      75       1       1       0       0       0       001000000D    121
     124       0       0       2       0                   XFORM       9D    122
     100      77       1       1       0       0     121       001010000D    123
     100       0       0       1       0                     ARC       9D    124
     124      78       1       1       0       0       0       001000000D    125
     124       0       0       2       0                   XFORM      10D    126
     100      80       1       1       0       0     125       001010000D    127
     100       0       0       1       0                     ARC      10D    128
     110      81       1       1       0       0       0       001010000D    129
     110       0       0       1       0                    LINE      15D    130
     110      82       1       1       0       0       0       001010000D    131
     110       0       0       1       0                    LINE      16D    132
     124      83       1       1       0       0       0       001000000D    133
     124       0       0       1       0                   XFORM      11D    134
     100      84       1       1       0       0     133       001010000D    135
     100       0       0       1       0                     ARC      11D    136
     124      85       1       1       0       0       0       001000000D    137
     124       0       0       1       0                   XFORM      12D    138
     100      86       1       1       0       0     137       001010000D    139
     100       0       0       1       0                     ARC      12D    140
     124      87       1       1       0       0       0       001000000D    141
     124       0       0       1       0                   XFORM      13D    142
     100      88       1       1       0       0     141       001010000D    143
     100       0       0       1       0                     ARC      13D    144
     124      89       1       1       0       0       0       001000000D    145
     124       0       0       1       0                   XFORM      14D    146
     100      90       1       1       0       0     145       001010000D    147
     100       0       0       1       0                     ARC      14D    148
     502      91       1       1       0       0       0       001010000D    149
     502       0       0       3       1                  VERTEX       2D    150
     504      94       1       1       0       0       0       000010001D    151
     504       0       0       3       1                    EDGE       2D    152
     110      97       1       1       0       0       0       001010000D    153
     110       0       0       1       0                    LINE      17D    154
     110      98       1       1       0       0       0       001010000D    155
     110       0       0       1       0                    LINE      18D    156
     120      99       1       1       0       0       0       001010000D    157
     120       0       0       1       0                    SREV       7D    158
     508     100       1       1       0       0       0       001010000D    159
     508       0       0       1       1                EDGELOOP       7D    160
     510     101       1       1       0       0       0       000010000D    161
     510       0       0       1       1                    FACE       7D    162
     110     102       1       1       0       0       0       001010000D    163
     110       0       0       1       0                    LINE      19D    164
     110     103       1       1       0       0       0       001010000D    165
     110       0       0       1       0                    LINE      20D    166
     120     104       1       1       0       0       0       001010000D    167
     120       0       0       1       0                    SREV       8D    168
     508     105       1       1       0       0       0       001010000D    169
     508       0       0       1       1                EDGELOOP       8D    170
     510     106       1       1       0       0       0       000010000D    171
     510       0       0       1       1                    FACE       8D    172
     128     107       1       1       0       0       0       001010000D    173
     128       0       0       6       0                  SPLSRF       1D    174
     508     113       1       1       0       0       0       001010000D    175
     508       0       0       1       1                EDGELOOP       9D    176
     508     114       1       1       0       0       0       001010000D    177
     508       0       0       1       1                EDGELOOP      10D    178
     510     115       1       1       0       0       0       000010000D    179
     510       0       0       1       1                    FACE       9D    180
     514     116       1       1       0       0       0       000000000D    181
     514       0       0       1       2                   SHELL       2D    182
     186     117       1       1       0       0       0       000000000D    183
     186       0       0       1       0                    MSBR       1D    184
314,1.1D0,1.2D0,1D2;                                                   1P      1
314,4.1D1,2.61589D1,1.12848D1;                                         3P      2
314,5.04854D1,1.5455D0,1.5455D0;                                       5P      3
314,6.40777D1,6.40777D1,6.40777D1;                                     7P      4
314,6.69062D1,6.69903D1,6.55217D1;                                     9P      5
314,6.952D1,7.426D1,7.9D1;                                            11P      6
314,9.21569D1,7.05882D1,4.70588D1;                                    13P      7
314,1D2,1D2,5.3D1;                                                    15P      8
314,1D2,1D2,9.49D1;                                                   17P      9
124,1D0,0D0,0D0,0D0,0D0,0D0,-1D0,8.189255631171D-3,0D0,1D0,0D0,       19P     10
0D0;                                                                  19P     11
100,0D0,0D0,0D0,4.45D-2,0D0,-4.45D-2,0D0;                             21P     12
110,4.45D-2,1.5D-1,0D0,4.45D-2,8.189255631171D-3,0D0;                 23P     13
124,-1D0,0D0,0D0,0D0,0D0,0D0,1D0,1.5D-1,0D0,1D0,0D0,0D0;              25P     14
100,0D0,0D0,0D0,4.45D-2,0D0,-4.45D-2,0D0;                             27P     15
110,-4.45D-2,1.5D-1,0D0,-4.45D-2,8.189255631171D-3,0D0;               29P     16
124,-1D0,0D0,0D0,0D0,0D0,0D0,-1D0,1.5D-1,0D0,-1D0,0D0,0D0;            31P     17
100,0D0,0D0,0D0,4.45D-2,0D0,-4.45D-2,0D0;                             33P     18
124,-1D0,0D0,0D0,0D0,0D0,0D0,-1D0,8.189255631171D-3,0D0,-1D0,         35P     19
0D0,0D0;                                                              35P     20
100,0D0,0D0,0D0,4.45D-2,0D0,-4.45D-2,0D0;                             37P     21
124,0D0,1D0,0D0,0D0,1D0,0D0,0D0,1.25D-1,0D0,0D0,-1D0,0D0;             39P     22
100,0D0,0D0,0D0,1.25D-1,0D0,-1.168107443688D-1,4.45D-2;               41P     23
124,0D0,-1D0,0D0,0D0,1D0,0D0,0D0,1.25D-1,0D0,0D0,1D0,0D0;             43P     24
100,0D0,0D0,0D0,1.25D-1,0D0,-1.168107443688D-1,4.45D-2;               45P     25
110,0D0,1.767382975467D-1,0D0,-4.45D-2,1.5D-1,0D0;                    47P     26
110,0D0,1.767382975467D-1,0D0,4.45D-2,1.5D-1,0D0;                     49P     27
502,6,0D0,1.767382975467D-1,0D0,-4.45D-2,1.5D-1,0D0,4.45D-2,          51P     28
1.5D-1,0D0,4.45D-2,8.189255631171D-3,0D0,-4.45D-2,                    51P     29
8.189255631171D-3,0D0,0D0,2.5D-1,0D0;                                 51P     30
504,10,47,51,1,51,2,49,51,1,51,3,33,51,2,51,3,27,51,2,51,3,21,        53P     31
51,4,51,5,37,51,5,51,4,45,51,6,51,5,41,51,6,51,4,29,51,2,51,5,        53P     32
23,51,3,51,4;                                                         53P     33
110,0D0,1.25D-1,0D0,0D0,1.125D0,0D0;                                  55P     34
124,3.035647958068D-1,9.528107969302D-1,0D0,0D0,                      57P     35
-9.528107969302D-1,3.035647958068D-1,0D0,1.25D-1,0D0,0D0,1D0,         57P     36
0D0;                                                                  57P     37
100,0D0,0D0,0D0,1.25D-1,0D0,-1.191013496163D-1,                       59P     38
3.794559947585D-2;                                                    59P     39
120,55,59,-3.204424506662D0,6.283185307180D-2;                        61P     40
508,3,0,53,5,1,0,0,53,7,0,0,0,53,8,1,0;                               63P     41
510,61,1,0,63;                                                        65P     42
110,0D0,1.855752124241D-1,0D0,0D0,-8.144247875759D-1,0D0;             67P     43
110,-4.45D-2,1.528362148874D-1,0D0,-4.45D-2,5.353040743794D-3,        69P     44
0D0;                                                                  69P     45
120,67,69,-3.204424506662D0,6.283185307180D-2;                        71P     46
508,4,0,53,5,0,0,0,53,10,0,0,0,53,4,0,0,0,53,9,1,0;                   73P     47
510,71,1,0,73;                                                        75P     48
110,0D0,1.855752124241D-1,0D0,0D0,-8.144247875759D-1,0D0;             77P     49
110,-4.45D-2,1.528362148874D-1,0D0,-4.45D-2,5.353040743794D-3,        79P     50
0D0;                                                                  79P     51
120,77,79,-6.283185307180D-2,3.204424506662D0;                        81P     52
508,4,0,53,6,0,0,0,53,9,0,0,0,53,3,1,0,0,53,10,1,0;                   83P     53
510,81,1,0,83;                                                        85P     54
110,0D0,1.25D-1,0D0,0D0,1.125D0,0D0;                                  87P     55
124,3.035647958068D-1,9.528107969302D-1,0D0,0D0,                      89P     56
-9.528107969302D-1,3.035647958068D-1,0D0,1.25D-1,0D0,0D0,1D0,         89P     57
0D0;                                                                  89P     58
100,0D0,0D0,0D0,1.25D-1,0D0,-1.191013496163D-1,                       91P     59
3.794559947585D-2;                                                    91P     60
120,87,91,-6.346017160251D0,-3.078760800518D0;                        93P     61
508,3,0,53,6,1,0,0,53,8,0,0,0,53,7,1,0;                               95P     62
510,93,1,0,95;                                                        97P     63
110,0D0,1.767382975467D-1,0D0,0D0,-8.232617024533D-1,0D0;             99P     64
110,0D0,1.767382975467D-1,0D0,-4.539D-2,1.494652340491D-1,0D0;       101P     65
120,99,101,-6.283185307180D-2,3.204424506662D0;                      103P     66
508,3,0,53,1,0,0,0,53,2,1,0,0,53,3,0,0;                              105P     67
510,103,1,0,105;                                                     107P     68
110,0D0,1.767382975467D-1,0D0,0D0,-8.232617024533D-1,0D0;            109P     69
110,0D0,1.767382975467D-1,0D0,-4.539D-2,1.494652340491D-1,0D0;       111P     70
120,109,111,-3.204424506662D0,6.283185307180D-2;                     113P     71
508,3,0,53,1,1,0,0,53,4,1,0,0,53,2,0,0;                              115P     72
510,113,1,0,115;                                                     117P     73
514,6,65,1,75,0,85,0,97,1,107,0,117,0;                               119P     74
124,1D0,0D0,0D0,0D0,0D0,0D0,1D0,1.324580544785D-2,0D0,-1D0,0D0,      121P     75
0D0;                                                                 121P     76
100,0D0,0D0,0D0,5.6D-2,0D0,-5.6D-2,0D0;                              123P     77
124,-1D0,0D0,0D0,0D0,0D0,0D0,1D0,1.324580544785D-2,0D0,1D0,0D0,      125P     78
0D0;                                                                 125P     79
100,0D0,0D0,0D0,5.6D-2,0D0,-5.6D-2,0D0;                              127P     80
110,5.6D-2,1.324580544785D-2,0D0,5.6D-2,1.5D-1,0D0;                  129P     81
110,-5.6D-2,1.324580544785D-2,0D0,-5.6D-2,1.5D-1,0D0;                131P     82
124,-1D0,0D0,0D0,0D0,0D0,0D0,1D0,1.5D-1,0D0,1D0,0D0,0D0;             133P     83
100,0D0,0D0,0D0,5.6D-2,0D0,-5.6D-2,0D0;                              135P     84
124,-1D0,0D0,0D0,0D0,0D0,0D0,-1D0,1.5D-1,0D0,-1D0,0D0,0D0;           137P     85
100,0D0,0D0,0D0,5.6D-2,0D0,-5.6D-2,0D0;                              139P     86
124,-1D0,0D0,0D0,0D0,0D0,0D0,-1D0,1.5D-1,0D0,-1D0,0D0,0D0;           141P     87
100,0D0,0D0,0D0,4.45D-2,0D0,-4.45D-2,0D0;                            143P     88
124,1D0,0D0,0D0,0D0,0D0,0D0,-1D0,1.5D-1,0D0,1D0,0D0,0D0;             145P     89
100,0D0,0D0,0D0,4.45D-2,0D0,-4.45D-2,0D0;                            147P     90
502,6,-5.6D-2,1.5D-1,0D0,5.6D-2,1.5D-1,0D0,-5.6D-2,                  149P     91
1.324580544785D-2,0D0,5.6D-2,1.324580544785D-2,0D0,-4.45D-2,         149P     92
1.5D-1,0D0,4.45D-2,1.5D-1,0D0;                                       149P     93
504,8,139,149,1,149,2,135,149,1,149,2,123,149,3,149,4,143,149,5,     151P     94
149,6,147,149,6,149,5,127,149,4,149,3,131,149,3,149,1,129,149,4,     151P     95
149,2;                                                               151P     96
110,0D0,1.855752124241D-1,0D0,0D0,-8.144247875759D-1,0D0;            153P     97
110,-5.6D-2,1.527350838910D-1,0D0,-5.6D-2,1.051072155681D-2,0D0;     155P     98
120,153,155,-6.283185307180D-2,3.204424506662D0;                     157P     99
508,4,0,151,3,0,0,0,151,7,1,0,0,151,1,1,0,0,151,8,0,0;               159P    100
510,157,1,0,159;                                                     161P    101
110,0D0,1.855752124241D-1,0D0,0D0,-8.144247875759D-1,0D0;            163P    102
110,-5.6D-2,1.527350838910D-1,0D0,-5.6D-2,1.051072155681D-2,0D0;     165P    103
120,163,165,-3.204424506662D0,6.283185307180D-2;                     167P    104
508,4,0,151,6,0,0,0,151,8,1,0,0,151,2,0,0,0,151,7,0,0;               169P    105
510,167,1,0,169;                                                     171P    106
128,1,1,1,1,0,0,1,0,0,-5.824D-2,-5.824D-2,5.824D-2,5.824D-2,         173P    107
-5.831246878489D-2,-5.831246878489D-2,5.831246878489D-2,             173P    108
5.831246878489D-2,1D0,1D0,1D0,1D0,5.824D-2,1.5D-1,                   173P    109
5.831246878489D-2,-5.824D-2,1.5D-1,5.831246878489D-2,5.824D-2,       173P    110
1.5D-1,-5.831246878489D-2,-5.824D-2,1.5D-1,-5.831246878489D-2,       173P    111
-5.824D-2,5.824D-2,-5.831246878489D-2,5.831246878489D-2;             173P    112
508,2,0,151,2,1,0,0,151,1,0,0;                                       175P    113
508,2,0,151,4,1,0,0,151,5,1,0;                                       177P    114
510,173,2,0,175,177;                                                 179P    115
514,3,161,0,171,0,179,1;                                             181P    116
186,119,1,0;                                                         183P    117
S      1G      4D    184P    117                                        T      1
